  0
SECTION
  2
HEADER
  9
$ACADVER
  1
AC1009
  9
$INSBASE
 10
-31.10611923520889
 20
-0.5
 30
0.0
  9
$EXTMIN
 10
-31.10611923520889
 20
-1.328427124746189
 30
0.0
  9
$EXTMAX
 10
34.82842712474613
 20
62.69041969821041
 30
0.0
  9
$LIMMIN
 10
0.0
 20
0.0
  9
$LIMMAX
 10
410.0
 20
287.0
  9
$ORTHOMODE
 70
     0
  9
$REGENMODE
 70
     1
  9
$FILLMODE
 70
     1
  9
$QTEXTMODE
 70
     0
  9
$MIRRTEXT
 70
     1
  9
$DRAGMODE
 70
     2
  9
$LTSCALE
 40
25.0
  9
$OSMODE
 70
     0
  9
$ATTMODE
 70
     1
  9
$TEXTSIZE
 40
3.5
  9
$TRACEWID
 40
1.0
  9
$TEXTSTYLE
  7
STANDARD
  9
$CLAYER
  8
0
  9
$CELTYPE
  6
BYLAYER
  9
$CECOLOR
 62
   256
  9
$DIMSCALE
 40
1.0
  9
$DIMASZ
 40
3.5
  9
$DIMEXO
 40
0.1
  9
$DIMDLI
 40
7.0
  9
$DIMRND
 40
0.0
  9
$DIMDLE
 40
0.0
  9
$DIMEXE
 40
1.8
  9
$DIMTP
 40
0.0
  9
$DIMTM
 40
0.0
  9
$DIMTXT
 40
3.5
  9
$DIMCEN
 40
1.5
  9
$DIMTSZ
 40
0.0
  9
$DIMTOL
 70
     0
  9
$DIMLIM
 70
     0
  9
$DIMTIH
 70
     0
  9
$DIMTOH
 70
     0
  9
$DIMSE1
 70
     0
  9
$DIMSE2
 70
     0
  9
$DIMTAD
 70
     0
  9
$DIMZIN
 70
     0
  9
$DIMBLK
  1

  9
$DIMASO
 70
     1
  9
$DIMSHO
 70
     0
  9
$DIMPOST
  1

  9
$DIMAPOST
  1

  9
$DIMALT
 70
     0
  9
$DIMALTD
 70
     2
  9
$DIMALTF
 40
25.39999999999999
  9
$DIMLFAC
 40
1.0
  9
$DIMTOFL
 70
     0
  9
$DIMTVP
 40
0.0
  9
$DIMTIX
 70
     0
  9
$DIMSOXD
 70
     0
  9
$DIMSAH
 70
     0
  9
$DIMBLK1
  1

  9
$DIMBLK2
  1

  9
$DIMSTYLE
  2
*UNNAMED
  9
$DIMCLRD
 70
     0
  9
$DIMCLRE
 70
     0
  9
$DIMCLRT
 70
     0
  9
$DIMTFAC
 40
1.0
  9
$DIMGAP
 40
0.09
  9
$LUNITS
 70
     2
  9
$LUPREC
 70
     2
  9
$SKETCHINC
 40
1.0
  9
$FILLETRAD
 40
0.0
  9
$AUNITS
 70
     0
  9
$AUPREC
 70
     0
  9
$MENU
  1

  9
$ELEVATION
 40
0.0
  9
$PELEVATION
 40
0.0
  9
$THICKNESS
 40
0.0
  9
$LIMCHECK
 70
     0
  9
$BLIPMODE
 70
     1
  9
$CHAMFERA
 40
0.0
  9
$CHAMFERB
 40
0.0
  9
$SKPOLY
 70
     0
  9
$TDCREATE
 40
2448476.440094907
  9
$TDUPDATE
 40
2449393.432126272
  9
$TDINDWG
 40
0.0326687500
  9
$TDUSRTIMER
 40
0.0326687500
  9
$USRTIMER
 70
     1
  9
$ANGBASE
 50
0.0
  9
$ANGDIR
 70
     0
  9
$PDMODE
 70
     0
  9
$PDSIZE
 40
0.0
  9
$PLINEWID
 40
0.0
  9
$COORDS
 70
     2
  9
$SPLFRAME
 70
     0
  9
$SPLINETYPE
 70
     6
  9
$SPLINESEGS
 70
     8
  9
$ATTDIA
 70
     0
  9
$ATTREQ
 70
     1
  9
$HANDLING
 70
     1
  9
$HANDSEED
  5
134
  9
$SURFTAB1
 70
     6
  9
$SURFTAB2
 70
     6
  9
$SURFTYPE
 70
     6
  9
$SURFU
 70
     6
  9
$SURFV
 70
     6
  9
$UCSNAME
  2

  9
$UCSORG
 10
0.0
 20
0.0
 30
0.0
  9
$UCSXDIR
 10
1.0
 20
0.0
 30
0.0
  9
$UCSYDIR
 10
0.0
 20
1.0
 30
0.0
  9
$PUCSNAME
  2

  9
$PUCSORG
 10
0.0
 20
0.0
 30
0.0
  9
$PUCSXDIR
 10
1.0
 20
0.0
 30
0.0
  9
$PUCSYDIR
 10
0.0
 20
1.0
 30
0.0
  9
$USERI1
 70
     0
  9
$USERI2
 70
     0
  9
$USERI3
 70
     0
  9
$USERI4
 70
     0
  9
$USERI5
 70
     0
  9
$USERR1
 40
1.0
  9
$USERR2
 40
0.0
  9
$USERR3
 40
0.0
  9
$USERR4
 40
0.0
  9
$USERR5
 40
0.0
  9
$WORLDVIEW
 70
     1
  9
$SHADEDGE
 70
     3
  9
$SHADEDIF
 70
    70
  9
$TILEMODE
 70
     1
  9
$MAXACTVP
 70
    16
  9
$PINSBASE
 10
0.0
 20
0.0
 30
0.0
  9
$PLIMCHECK
 70
     0
  9
$PEXTMIN
 10
1.000000000000000E+20
 20
1.000000000000000E+20
 30
1.000000000000000E+20
  9
$PEXTMAX
 10
-1.000000000000000E+20
 20
-1.000000000000000E+20
 30
-1.000000000000000E+20
  9
$PLIMMIN
 10
0.0
 20
0.0
  9
$PLIMMAX
 10
12.0
 20
9.0
  9
$UNITMODE
 70
     0
  9
$VISRETAIN
 70
     0
  9
$PLINEGEN
 70
     0
  9
$PSLTSCALE
 70
     0
  9
$TREEDEPTH
 70
  3020
  9
$DWGCODEPAGE
  3
undefined
  0
ENDSEC
  0
SECTION
  2
TABLES
  0
TABLE
  2
VPORT
 70
     2
  0
VPORT
  2
*ACTIVE
 70
     0
 10
0.0
 20
0.0
 11
1.0
 21
1.0
 12
12.36900861500505
 22
33.58007903512533
 13
0.0
 23
0.0
 14
1.0
 24
1.0
 15
10.0
 25
10.0
 16
0.0
 26
0.0
 36
1.0
 17
0.0
 27
0.0
 37
0.0
 40
68.16015807025067
 41
1.275675675675675
 42
50.0
 43
0.0
 44
0.0
 50
0.0
 51
0.0
 71
     0
 72
 20000
 73
     1
 74
     1
 75
     0
 76
     0
 77
     0
 78
     0
  0
ENDTAB
  0
TABLE
  2
LTYPE
 70
     2
  0
LTYPE
  2
CONTINUOUS
 70
    64
  3
Ausgezogene Linie
 72
    65
 73
     0
 40
0.0
  0
LTYPE
  2
ITEM-STRICH
 70
    64
  3
- - - - -
 72
    65
 73
     2
 40
1.5
 49
1.2
 49
-0.3
  0
ENDTAB
  0
TABLE
  2
LAYER
 70
     3
  0
LAYER
  2
0
 70
     0
 62
     7
  6
CONTINUOUS
  0
LAYER
  2
ITEM_50
 70
    64
 62
     7
  6
CONTINUOUS
  0
LAYER
  2
ITEM_GSTR
 70
    64
 62
     6
  6
ITEM-STRICH
  0
ENDTAB
  0
TABLE
  2
STYLE
 70
     1
  0
STYLE
  2
STANDARD
 70
     0
 40
0.0
 41
1.0
 50
0.0
 71
     0
 42
3.5
  3
txt
  4

  0
ENDTAB
  0
TABLE
  2
VIEW
 70
     0
  0
ENDTAB
  0
TABLE
  2
UCS
 70
     0
  0
ENDTAB
  0
TABLE
  2
APPID
 70
     1
  0
APPID
  2
ACAD
 70
    64
  0
ENDTAB
  0
TABLE
  2
DIMSTYLE
 70
     0
  0
ENDTAB
  0
ENDSEC
  0
SECTION
  2
BLOCKS
  0
ENDSEC
  0
SECTION
  2
ENTITIES
  0
LINE
  8
ITEM_50
  5
5A
 10
12.00000000000329
 20
51.99999999999658
 30
0.0
 11
7.500000000003183
 21
51.99999999999658
 31
0.0
  0
LINE
  8
ITEM_50
  5
5B
 10
7.500000000003183
 20
51.99999999999658
 30
0.0
 11
7.500000000003183
 21
57.49999999999681
 31
0.0
  0
LINE
  8
ITEM_50
  5
5C
 10
7.500000000003183
 20
38.49999999999681
 30
0.0
 11
7.500000000003183
 21
43.99999999999693
 31
0.0
  0
LINE
  8
ITEM_50
  5
5D
 10
7.500000000003183
 20
43.99999999999693
 30
0.0
 11
12.00000000000329
 21
43.99999999999693
 31
0.0
  0
LINE
  8
ITEM_50
  5
5E
 10
7.500000000003183
 20
38.49999999999681
 30
0.0
 11
6.500000000003183
 21
38.49999999999681
 31
0.0
  0
LINE
  8
ITEM_50
  5
5F
 10
6.500000000003183
 20
38.49999999999681
 30
0.0
 11
1.000000000003183
 21
43.79159291475389
 31
0.0
  0
LINE
  8
ITEM_50
  5
60
 10
6.500000000003183
 20
57.49999999999681
 30
0.0
 11
1.000000000003183
 21
52.20840708523974
 31
0.0
  0
LINE
  8
ITEM_50
  5
61
 10
7.500000000003183
 20
57.49999999999681
 30
0.0
 11
6.500000000003183
 21
57.49999999999681
 31
0.0
  0
LINE
  8
ITEM_50
  5
62
 10
1.000000000003183
 20
52.20840708523974
 30
0.0
 11
1.000000000003183
 21
43.79159291475389
 31
0.0
  0
LINE
  8
ITEM_50
  5
63
 10
12.00000000000011
 20
58.99999999999988
 30
0.0
 11
12.00000000000011
 21
34.99999999999988
 31
0.0
  0
LINE
  8
ITEM_50
  5
64
 10
17.0
 20
34.99999999999988
 30
0.0
 11
17.0
 21
52.99999999999988
 31
0.0
  0
LINE
  8
ITEM_50
  5
65
 10
14.0
 20
58.99999999999988
 30
0.0
 11
12.00000000000011
 21
58.99999999999988
 31
0.0
  0
LINE
  8
ITEM_50
  5
66
 10
17.0
 20
36.49999999999988
 30
0.0
 11
32.0
 21
36.5
 31
0.0
  0
LINE
  8
ITEM_50
  5
67
 10
32.0
 20
36.5
 30
0.0
 11
32.0
 21
53.0
 31
0.0
  0
LINE
  8
ITEM_50
  5
68
 10
32.0
 20
53.0
 30
0.0
 11
17.0
 21
52.99999999999988
 31
0.0
  0
LINE
  8
ITEM_50
  5
69
 10
19.0
 20
50.99999999999988
 30
0.0
 11
19.0
 21
38.49999999999988
 31
0.0
  0
LINE
  8
ITEM_50
  5
6A
 10
19.0
 20
38.49999999999988
 30
0.0
 11
29.0
 21
38.5
 31
0.0
  0
LINE
  8
ITEM_50
  5
6B
 10
29.0
 20
38.5
 30
0.0
 11
29.0
 21
51.0
 31
0.0
  0
LINE
  8
ITEM_50
  5
6C
 10
29.0
 20
51.0
 30
0.0
 11
19.0
 21
50.99999999999988
 31
0.0
  0
LINE
  8
ITEM_50
  5
6D
 10
14.0
 20
34.99999999999988
 30
0.0
 11
14.0
 21
58.99999999999988
 31
0.0
  0
LINE
  8
ITEM_50
  5
6E
 10
12.00000000000011
 20
34.99999999999988
 30
0.0
 11
17.0
 21
34.99999999999988
 31
0.0
  0
LINE
  8
ITEM_50
  5
6F
 10
14.0
 20
41.5
 30
0.0
 11
14.0
 21
61.47468754881288
 31
0.0
  0
LINE
  8
ITEM_50
  5
70
 10
15.0249921911602
 20
62.474375195221
 30
0.0
 11
34.0
 21
62.0
 31
0.0
  0
LINE
  8
ITEM_50
  5
71
 10
34.0
 20
62.0
 30
0.0
 11
34.0
 21
61.0
 31
0.0
  0
LINE
  8
ITEM_50
  5
72
 10
34.0
 20
61.0
 30
0.0
 11
17.0
 21
61.0
 31
0.0
  0
LINE
  8
ITEM_50
  5
73
 10
17.0
 20
61.0
 30
0.0
 11
17.0
 21
41.5
 31
0.0
  0
LINE
  8
ITEM_50
  5
74
 10
17.0
 20
41.5
 30
0.0
 11
14.0
 21
41.5
 31
0.0
  0
ARC
  8
ITEM_50
  5
75
 10
15.0
 20
61.47468754881288
 30
0.0
 40
1.0
 50
88.56790381583536
 51
180.0
  0
LINE
  8
ITEM_50
  5
76
 10
31.99999999999991
 20
24.5
 30
0.0
 11
31.99999999999991
 21
23.96410161513637
 31
0.0
  0
LINE
  8
ITEM_50
  5
77
 10
29.99999999999994
 20
24.5
 30
0.0
 11
31.99999999999991
 21
24.5
 31
0.0
  0
LINE
  8
ITEM_50
  5
78
 10
31.99999999999991
 20
-0.5
 30
0.0
 11
31.99999999999991
 21
0.0358983848614116
 31
0.0
  0
LINE
  8
ITEM_50
  5
79
 10
30.00000262497385
 20
-0.5
 30
0.0
 11
31.99999999999991
 21
-0.5
 31
0.0
  0
LINE
  8
ITEM_50
  5
7A
 10
13.99999999999991
 20
-0.5
 30
0.0
 11
13.99999999999991
 21
24.5
 31
0.0
  0
LINE
  8
ITEM_50
  5
7B
 10
13.99999999999991
 20
24.5
 30
0.0
 11
29.99999999999994
 21
24.5
 31
0.0
  0
LINE
  8
ITEM_50
  5
7C
 10
33.99999999999994
 20
20.5
 30
0.0
 11
33.99999999999991
 21
3.5
 31
0.0
  0
LINE
  8
ITEM_50
  5
7D
 10
29.99999999999991
 20
-0.5
 30
0.0
 11
13.99999999999991
 21
-0.5
 31
0.0
  0
ARC
  8
ITEM_50
  5
7E
 10
29.99999999999994
 20
20.5
 30
0.0
 40
4.0
 50
0.0
 51
90.0
  0
ARC
  8
ITEM_50
  5
7F
 10
29.99999999999991
 20
3.5
 30
0.0
 40
4.0
 50
270.0
 51
359.9999999999998
  0
LINE
  8
ITEM_50
  5
80
 10
13.99999999999991
 20
1.5
 30
0.0
 11
12.0
 21
1.5
 31
0.0
  0
LINE
  8
ITEM_50
  5
81
 10
12.0
 20
22.5
 30
0.0
 11
13.99999999999991
 21
22.5
 31
0.0
  0
LINE
  8
ITEM_50
  5
82
 10
12.0
 20
1.5
 30
0.0
 11
12.0
 21
22.5
 31
0.0
  0
LINE
  8
ITEM_GSTR
  5
83
 10
2.0
 20
8.0
 30
0.0
 11
12.00000000000002
 21
8.0
 31
0.0
  0
ARC
  8
ITEM_GSTR
  5
84
 10
2.0
 20
9.0
 30
0.0
 40
1.0
 50
180.0
 51
270.0
  0
ARC
  8
ITEM_GSTR
  5
85
 10
2.0
 20
15.0
 30
0.0
 40
1.0
 50
89.99999999999998
 51
180.0
  0
LINE
  8
ITEM_GSTR
  5
86
 10
1.0
 20
9.0
 30
0.0
 11
1.0
 21
15.0
 31
0.0
  0
LINE
  8
ITEM_GSTR
  5
87
 10
2.0
 20
16.0
 30
0.0
 11
12.00000000000002
 21
16.0
 31
0.0
  0
LINE
  8
ITEM_GSTR
  5
88
 10
7.5
 20
16.0
 30
0.0
 11
7.5
 21
8.0
 31
0.0
  0
LINE
  8
ITEM_GSTR
  5
89
 10
6.737222400000064
 20
16.0
 30
0.0
 11
6.737222400000064
 21
8.0
 31
0.0
  0
LINE
  8
ITEM_50
  5
129
 10
-31.10611923520889
 20
60.97444348285789
 30
0.0
 11
-31.10611923520889
 21
62.47444348285789
 31
0.0
  0
LINE
  8
ITEM_50
  5
12A
 10
-6.106119235208893
 20
62.47444348285789
 30
0.0
 11
-6.106119235208893
 21
60.97444348285789
 31
0.0
  0
LINE
  8
ITEM_50
  5
12B
 10
-31.10611923520889
 20
60.97444348285789
 30
0.0
 11
-6.106119235208893
 21
60.97444348285789
 31
0.0
  0
LINE
  8
ITEM_50
  5
12C
 10
-31.10611923520889
 20
62.47444348285789
 30
0.0
 11
-6.106119235208893
 21
62.47444348285789
 31
0.0
  0
LINE
  8
ITEM_50
  5
12D
 10
-6.10611923520581
 20
36.47444348285789
 30
0.0
 11
-6.106119235205795
 21
52.97444348285789
 31
0.0
  0
LINE
  8
ITEM_50
  5
12E
 10
-31.10611923520581
 20
36.47444348285789
 30
0.0
 11
-6.10611923520581
 21
36.47444348285789
 31
0.0
  0
LINE
  8
ITEM_50
  5
12F
 10
-31.10611923520581
 20
52.97444348285789
 30
0.0
 11
-31.10611923520581
 21
36.47444348285789
 31
0.0
  0
LINE
  8
ITEM_50
  5
130
 10
-6.106119235205795
 20
52.97444348285789
 30
0.0
 11
-31.10611923520581
 21
52.97444348285789
 31
0.0
  0
LINE
  8
ITEM_50
  5
131
 10
-8.60611923520581
 20
36.47444348285789
 30
0.0
 11
-8.60611923520581
 21
34.97444348285789
 31
0.0
  0
LINE
  8
ITEM_50
  5
132
 10
-8.60611923520581
 20
34.97444348285789
 30
0.0
 11
-28.60611923520581
 21
34.97444348285789
 31
0.0
  0
LINE
  8
ITEM_50
  5
133
 10
-28.60611923520581
 20
34.97444348285789
 30
0.0
 11
-28.60611923520581
 21
36.47444348285789
 31
0.0
  0
ENDSEC
  0
EOF
